marshall tucker band - "losin you-tab"

#

Subject: Losin' You (Chords)

Losin' You
The Marshall Tucker Band
>From the Album-"The Marshall Tucker Band"
1973
Written by Toy Caldwell
Tabbed by Ray Scheidler <[email protected]om>

Chords:

D C G Dmaj7
E-----2-------------------3----------2--------
B-----3-------1----------------------2--------
G-----2------------------------------2--------
D-------------2-------------------------------
A-------------3-----------2-------------------
E-------------------------3-------------------

D
E---------9/10--------------------------------
B---------------------------------------------
G---------------------------------------------
D------------------3----2----0---------0------
A---------------------------------3-----------
E---------------------------------------------

D
I told you once and I told you twice

D
And I ain't gonna tell you no more

D
You don't do nothin' that I'm tellin' you

D
Guess it's time for me to go

D
Finally found out the way you are

D
And it's so hard for me to take

D
I can't understand the feeling

D
Maybe we waited a little too late

C G D
Ain't no denying you've been lying

C G D
Ain't no mistaking my heart is breaking

C G D
Ain't to my choosing that I'm losing...losing you

D
Yesterday I got the news

D
About the way you've been doin' me

D
Never thought it'd end this way

D
Guess I was too blind to see

C G D
Ain't no denying you've been lying

C G D
Ain't no mistaking my heart is breaking

C G D
Ain't to my choosing that I'm losing...losing you

Break: D D C D D C Dmaj7 C Dmaj7 C

D
I got the blues

D
And there's one thing I'll always know

D
A woman can be such a bad thing

D
Makes a man feel so low

C G D
Ain't no denying you've been lying

C G D
Ain't no mistaking my heart is breaking

C G D
Ain't to my choosing that I'm losing...losing you

C G D
Ain't no denying you've been lying

C G D
Ain't no mistaking my heart is breaking

C G D
Ain't to my choosing that I'm losing...losing you

0 Comments