Roughstock.com

COWPIE Country Music Lyrics


wylde zakk way beyond empty-crd


Send "way beyond empty-crd" Ringtone to Cell
#

Subject: "Way Beyond Empty" by Zakk Wylde

                 WAY BEYOND EMPTY
                   By ZAKK WYLDE
                Tabbed by Jimmy Egan


Capo 1st

Riff A
D                G
-3--2--0--2---------------3---------------------
-3--3--3--3------------------------------------
-2--2--2--2----------0-------0-----------------
------------------------0-------0--------------
--------------------------------------------
---------------0--3---------------------------


INTRO: Riff A 2x's

w/ Riff A
If I could I surely would
Child ease your pain
But if I could no longer
Would you still know my name?

If I couldn't drain the tears
That pour from these eyes
D                   Em
Would you turn your back on me
G
Would you wave good bye

CHORUS;
Or leave me,
D          F#m     G
Way beyond empty inside
Awaiting my last day to arrive
Way beyond empty inside
Awaiting my end to arrive

w/ Riff A
If I couldn't be the shoulder
Which your head would rest upon
would you still be waiting
Or would you be gone?

If I couldn't keep the smile
Forever on your face
D             Em
Would I still be around
   G
Or would I be replaced?

CHORUS


Riff B
------------------------------------------2-0-0-2-2-2-3-2-2--
------------------------------------------3-3-3-3-3-3-3-3-3--
---3-----5----2----3-----5-----2----------2-2-2-2-2-2-2-2-2--
-------------------------------------5----0-0-0-0-0-0-0-0-0--
-1--1-3--3--0--1---1-3---3-0---0---------------------------
-----------------------------------3---3---------------------

w/ Riff B
Oh Oh Oh
Oh Oh Oh Oh Oh

Oh Oh Oh
Oh Oh Oh Oh Oh (Just end on D)

Solo (D, F#m, G 4x)

Riff A 2x's

w/ Riff A
Would you promise me
That things would never change
Could you promise me
That things they'd stay the same

If I couldn't clear the clouds
From over your head
D                   Em
Would you keep your word to me
        G
Amongst all the things you said?

CHORUS

D, F#m, G until it fades out


Send "way beyond empty-crd" Ringtone to Cell