Roughstock.com

COWPIE Country Music Lyrics


Buck Owens Buckaroo


Send "Buckaroo" Ringtone to Cell
  
                                                                  (n.c.)     
            Briskly, with a good downbeat.                   e|-------------|
                                                        4    B|-------------|
            Notes in brackets [1] are compiled at       -    G|-------------|
            the end.                                    4    D|-------------|
                                                   Key of D  A|----0--2--4--|
                                                             E|-------------|
  
  
      1.      D     /         /     /        G     /          /     /    
      2.  e|----------0h2--|--3--2--0-----|-----------5h7--|--8--7--5-------|
      3.  B|--------3------|-----------3--|--------8-------|-----------8----|
          G|-----2---------|--------------|-----7----------|----------------|
          D|--0------------|--------------|--0-------------|----------------|
          A|---------------|--------------|----------------|----------------|
          E|---------------|--------------|----------------|----------------|
                                            [1]
  
              D     /         /     /        A     /          A7    /       
          e|----------0h2--|--3--2--0-----|----------------|----------------|
          B|--------3------|-----------3--|-----2--0--2----|--3--2--0--2----|
          G|-----2---------|--------------|--------------2-|----------------|
          D|--0------------|--------------|-----2-----2----|-----2-----2----|
          A|---------------|--------------|--0-------------|----------------|
          E|---------------|--------------|----------------|----------------|
  
  
  
              D               /              G                /          
          e|----------0h2--|--3--2--0-----|-----------5h7--|--8--7--5-------|
          B|--------3------|-----------3--|--------8-------|-----------8----|
          G|-----2---------|--------------|--0--7----------|----------------|
          D|--0------------|--------------|----------------|----------------|
          A|---------------|--------------|----------------|----------------|
          E|---------------|--------------|----------------|----------------|
  
  
  
              D     /         A     /          D(!) G(!) A7(!) /       
          e|------0-232----|----------------|--3----3-------|---------------|
          B|----3--------3-|-----2--0--2----|--2----0----2--|-----2--0--2---|
          G|---------------|----------------|--3----0----0--|---------------|
          D|--0------------|-----2-----0----|--0----0----2--|-----2-----2---|
          A|---------------|--0-------------|-------2----0--|--0------------|
          E|---------------|----------------|-------3-------|---------------|
                    [2]                        [3]
  
  
              D    G    A7    (n.c.)     
      1.  e|--2----3-------|-------------|  Back to beginning...
          B|--3----0----2--|-------------|  for verse 2.
          G|--2----0----0--|-------------|
          D|--0----0----2--|-------------|
          A|-------2----0--|----0--2--4--|
          E|-------3-------|-------------|
  
              D    G    D     (n.c.)
      2.  e|--2----3----2--|-------------|  To the bridge...
          B|--3----0----3--|-------------| 
          G|--2----0----2--|-------------| 
          D|--0----0----0--|----0--------| 
          A|-------2-------|-------4--2--|
          E|-------3-------|-------------| 
  
  
              D    A7   D
      3.  e|--2----3----2\|\\14-------|  End.
          B|--3----2----3\|\\15-------| 
          G|--2----0----2\|\\14-------| 
          D|--0----2----0--|----0--------| 
          A|-------0-------|-------------|
          E|-------3-------|-------------| 
                        [4]
  
  
     BRIDGE:
              A               /              D               /            
          e|---------------|--------------|----------0h2--|--3--2--0-----|
          B|----------0h2--|--3--2--0--2--|--------3------|-----------3--|
          G|--------2------|--------------|-----2---------|--------------|
          D|-----2---------|--------------|--0------------|--------------|
          A|--0------------|--------------|---------------|--------------|
          E|---------------|--------------|---------------|--------------|
  
  
              E               /              A                A7            
          e|--0------------|--------------|----------------|-------------|
          B|--0------------|--------------|-----2--0--2----|--3-2-0h2----| 
          G|--1------------|--------------|--------------2-|-------------|
          D|--2------------|--2-----------|-----2-----0----|--2-2---2----|
          A|--2---------2--|-----2--------|--0-------------|-------------|
          E|--0---0--4-----|--------4--0--|----------------|-------------|
  
     Now, go back to beginning for verse 3 and end.
  
  
   Summary Notes:
============================================================================
   This tab is based on my own version of Buckaroo. We played it to open
   each set for many years...
   [1] - I play an open D here. You might prefer an open G.
   [2] - This triplet is not quite a slide, more of a "roll" of the finger.
   [3] - I accent these chords with a strong downbeat and stop with the hand.
   [4] - Here, I let the open D ring as I slide the D chord up an octave!
============================================================================
Send "Buckaroo" Ringtone to Cell