Roughstock.com

COWPIE Country Music Lyrics


Cumberland Ridgerunners No Place To Pillow My Head


Send "No Place To Pillow My Head" Ringtone to Cell
#


Greg: Attached in tab format is my arrangement of a song written by Doc Hopkins.  Doc 
Hopkins performed with the hillbilly group the Cumberland Ridgerunners on WJJD and the 
WLS National Barn Dance in Chicago, Illinois from early 1930 to mid to late 1950.


No Place To Pillow My Head BY: DOC HOPKINS
Arrangement By: Bill Taylor

                                                                  
|---4------4--4-----|---4------2--0-----|---2------0--------|-----
|-------------------|-------------------|-------------2-----|-----
|------1---------1--|------1---------1--|------2---------2--|-----
|-------------------|-------------------|-------------------|-----
|-------------------|-------------------|---0------0--------|-----
|---0------0--------|---0------0--------|-------------------|-----
   Once   I   was      hap-   py  with     heart  free from       

                                                                  
-----------------|----------0--0-----|----------2--4-----|--------
-0------0--0-----|---0---------------|---5---------------|--------
----1---------1--|------1---------1--|------3---------3--|--------
-----------------|-------------------|-------------------|--------
-----------------|-------------------|-------------------|--------
-0------0--------|---0------0--------|---2------2--------|--------
care   had   a      Dad-   dy  and      Mam-   ma    so           

                                                                  
-2-----------|--------------|---4------4--4-----|-----------------
-------------|--------------|-------------------|-----------------
----2-----2--|-----2-----2--|------1---------1--|-----------------
-------------|--------------|-------------------|-----------------
-2-----------|--2-----------|-------------------|-----------------
-------2-----|--------2-----|---0------0--------|-----------------
sweet__________                Dolls  and  a                      

                                                                  
-4------2--0-----|---2------0--------|-------------------|--------
-----------------|-------------2-----|---0---------0-----|--------
----1---------1--|------2---------2--|------1---------1--|--------
-----------------|-------------------|-------------------|--------
-----------------|---0------0--------|-------------------|--------
-0------0--------|-------------------|---0-----0---------|--------
dog-   gie    and   play-  things so    dear,     And             



                                                                  
--------0--0-----|----------0--1-----|---0-----------|------------
-0---------------|---4---------------|---------------|------------
----1---------1--|------2---------2--|------1-----1--|------------
-----------------|-------------------|---------------|------------
-----------------|---2------2--------|---------------|------------
-0------0--------|-------------------|---0-----0-----|------------
stock- ings and     shoes  on  my       feet_________             

                                                                  
----------------|---4------4--4-----|---4------2--0-----|---------
----------0-----|-------------------|-------------------|---------
---1---------1--|------1---------1--|------1---------1--|---------
----------------|-------------------|-------------------|---------
----------------|-------------------|-------------------|---------
0-----0---------|---0------0--------|---0------0--------|---------
         But       now    through this world  I   must            

                                                                  
-2------0--------|---------------|----------0--0-----|------------
-----------2-----|---0-----------|---0---------------|------------
----2---------2--|------1-----1--|------1---------1--|------------
-----------------|---------------|-------------------|------------
-0------0--------|---------------|-------------------|------------
-----------------|---0-----0-----|---0------0--------|------------
wan-   der   a-     lone            Beg-   ing   for              

                                                                  
--------2--4-----|---2-----------|------------------|-------------
-5---------------|---------------|------------2-----|-------------
----3---------3--|------2-----2--|-----2---------2--|-------------
-----------------|---------------|------------------|-------------
-----------------|---2-----------|--2---------------|-------------
-2------2--------|---------2-----|---------2--------|-------------
pen-   nies  and    bread_______            For                   

                                                                  
-4------4--4-----|---4------2--0-----|---2------0--------|--------
-----------------|-------------------|-------------2-----|--------
----1---------1--|------1---------1--|------2---------2--|--------
-----------------|-------------------|-------------------|--------
-----------------|-------------------|---0------0--------|--------
-0------0--------|---0------0--------|-------------------|--------
I      have  no     Dad-   dy    no     Mam-   ma   nor           

                                                                  
--------------|---0--0-----|----------0--1-----|------------------
-0------0-----|------------|---4---------------|------------------
----1------1--|---------1--|------2---------2--|------------------
--------------|------------|-------------------|------------------
--------------|------------|---2------2--------|------------------
-0------0-----|---0--------|-------------------|------------------
home.  No        place   to   pil-   low  my                      

                                                                  
-0-----------|--------------|------------|---4-----------|--------
-------------|--------------|------0-----|---------------|--------
----1-----1--|-----1-----1--|---------1--|------1-----1--|--------
-------------|--------------|------------|---------------|--------
-------------|--------------|------------|---------------|--------
-0-----0-----|--0-----0-----|--0---------|---0-----0-----|--------
head_______                       No        home________          



                                                                  
-2------0-----------|---0------0--0-----|----------2--4-----|-----
--------------------|-------------------|---5---------------|-----
----2------1-----1--|------1---------1--|------3---------3--|-----
--------------------|-------------------|-------------------|-----
--------------------|-------------------|-------------------|-----
-2------0-----0-----|---0------0--------|---2------2--------|-----
no     home_______     No     place to     pil-   low  my         

                                                                  
-2-----------|------------------|---4------4--4-----|-------------
-------------|------------0-----|-------------------|-------------
----2-----2--|-----2---------2--|------1---------1--|-------------
-------------|------------------|-------------------|-------------
-2-----------|--2---------------|-------------------|-------------
-------2-----|--------2---------|---0------0--------|-------------
head_______              The       day    seems so                

                                                                  
-4------2--0-----|---2------0--------|-------------------|--------
-----------------|-------------2-----|---0---------0-----|--------
----1---------1--|------2---------2--|------1---------1--|--------
-----------------|-------------------|-------------------|--------
-----------------|---0------0--------|-------------------|--------
-0------0--------|-------------------|---0------0--------|--------
sad    and    the   night  is    so     long   since              

                                                                  
--------0--0-----|----------0--1-----|---0-----------||-----------
-0---------------|---4---------------|---0-----------||-----------
----1---------1--|------2---------2--|---1-----------||-----------
-----------------|-------------------|---------------||-----------
-----------------|---2------2--------|---------------||-----------
-0------0--------|-------------------|---0-----------||-----------
Dad-   dy  and      Mam-   ma   are     dead                      


----1-----------------|--------------|------------|---------------|--------
--0-----0-----|--0-----0-----|--0---------|---0-----0-----|---
Send "No Place To Pillow My Head" Ringtone to Cell